.

( )

A                                                   


Intro (classic guitar):
Em Am H7 Em Em Am H7 Em
E|----------------------------------------------------------------------------
H|-----0-0h1------------------------------------------------------------------
G|-0h2---------2--2----2--2--0------------------------------------------------
D|------------------------------------2-------2------1------2---2-------------
A|----------------------------------------------------------------------------
E|----------------------------------------------------------------------------
Em Am H7 Em Em Am H7 Em
E|--------------------------------------2--3--2--3----------------------------
H|-----0----0-0h1----0--1--1s4--4-5--------------------1--0h1p0---------------
G|-0-2------------------------------------------------------------2--0--------
D|----------------------------------------------------------------------1--2--
A|----------------------------------------------------------------------------
E|----------------------------------------------------------------------------
Em C Am H7
Cyee y e ep oeca,
Em C Am Hm
A ec ep - pao, e cyao.
Am H7 Em G
o a e pacpo o a,
Am C H7
A ye poy oy eeca.
opaae e, poa poca;
cy o paao;
o ce pao e ep oay -
e o e paae ooca.
C Am C Am Hm
ace oa oxo a p,
C Am C Am Hm
opy eo pacca aa ...
Am H7 Em G
e eoac c oo e pay,
Am C H7
o oepe eo py.
C D G Em
pe py - o oa,
Am H7 Em
oa aaye aec oa ...
Outro (classic guitar):
Em Am H7 Em Em Am H7 Em
E|------------------------------------------------0--2--3--2--2h3-2-0---------
H|-----0-0h1---0--1----1--0h1p0--0-0--5--5-4-5--------------------------------
G|-0h2------------------------------------------------------------------------
D|----------------------------------------------------------------------------
A|----------------------------------------------------------------------------
E|----------------------------------------------------------------------------
Em Am H7 Em Em Am H7 Em
E|-0-2-3s7--7--7-7--5--2--3--2---0--0--0---0--2--2s3--3--2--0h2p0--0----------
H|-------------------------------------------------------------------5-4-4-4h5
G|----------------------------------------------------------------------------
D|----------------------------------------------------------------------------
A|----------------------------------------------------------------------------
E|----------------------------------------------------------------------------