.

( )

A                                                   

Cepepo ocoa oeo

//////// aaa ca aoacp a pe a. ae pae po (cyae
ac, ca c "oe aoa":

o pac c o cy paec oce epeopa
opaa o ao. po eoa aya.
E||--7----5----3----2--2----------------|-----------------------------0--------|
B||-------------------------------------|-----------1--------3-----------------|
G||--7----5----4----2--2----------------|--------0-----0--------0--------0-----|
D||-------------------------------------|-----2-----------2--------2--------2--|
A||-------------------------------------|--0-----------------------------------|
E||-------------------------------------|--------------------------------------|

opy cpyy O c
pa xo. opaa
------7---5-----3------------2--2-------|-----------------------------0--------|
------------0-----0---------------------|-----------1--------3-----------------|
------7-7-----5-----4--------2--2-------|--------0-----0--------0--------0-----|
----------------------------------------|-----2-----------2--------2--------2--|
----------------------------------------|--0-----------------------------------|
----------------------------------------|--------------------------------------|
riff1 e oa aya
-----------3--------2--------||
--------3-----3--------------||
-----2-----------2-----------||
--0--------------------------||
-----------------------------||
-----------------------------||
///////////ae c oao. epeop ee pae, o ocoo - ecyoe
apeo. oo y xaep a epo cpye a D. Aop ec ae:
Cadd9 G Em
pae ceo cpeo - e e ea.
Cadd9 G D
pae cepe - eo e ea ee?
C D C D
a yo o ea, a yo ec ee y -
C C/H Am D
Cap po y ae .
A ce o, a ce cae e,
A ce oe o cee - o e e a e ee?
o coo o-o e a,
Coo e ea,
Coo a o e xaae e...
/////oce epoo pa pee pae oe, oce opoo - o
epeopo.

G Hm
Ce- pe- po oc- o-a oeo, Cepepo ocoa...
E||---------------------------||
B||---------------------------||
G||-------0----2----4----2--0-||
D||--4------------------------||
A||---------------------------||
E||---------------------------||
Am C/H C D Dsus4 D
Pae a coa, o caa o ee?
G Hm
Ce- pe- po oc- o-a oeo, Cepepo ocoa...
E||---------------------------||
B||---------------------------||
G||-------0----2----4----2--0-||
D||--4------------------------||
A||---------------------------||
E||---------------------------||
G D Am C/H C D
e co, e e, poe c ae oco...
////////pop pepo ao:
E||--3--------2--------3--------2--------|
B||-----0--------0--------0--------0-----|
G||--------0--------0--------0--------0--|
D||--2--------2--------2--------2--------|
A||--------------------------------------|
E||--------------------------------------|

--0-----------------0------------------||--3--------2--------3--------2--------|
-----------1-----------------1---------||-----0--------0--------0--------0-----|
-----0--------0--------0--------0-----*||--------0--------0--------0--------0--|
--------2--------2--------2--------2--*||--2--------2--------2--------2--------|
--3------------------------------------||--------------------------------------|
---------------------------------------||--------------------------------------|

--------------------------------------|-----------------------------2--------|
--------------------------------------|-----------1--------------3-----3-----|
--------0--------0--------0--------0--|--------0-----0--------2-----------2--|
-----2--------2--------2--------2-----|-----2-----------2--0-----------------|
--3--------2--------0--------2--------|--3-----------------------------------|
--------------------------------------|--------------------------------------|

--3----------------||
--3----------------||
-------------------||
-------------------||
-------------------||
-------------------||
a epeec ye, y aceo.
ya, ya - a o e ye o.
oe , ce,
oe , o e a,
o a, o e epe ca oo y.
Cepepo ocoa oeo, Cepepo ocoa...
y pae a coa, o caa o ee?
Cepepo ocoa oeo, Cepepo ocoa...
e co, e e, poe c ae oco...
//////oa:
E||--3--------2--------3--------2--------|
B||-----0--------0--------0--------0-----|
G||--------0--------0--------0--------0--|
D||--2--------2--------2--------2--------|
A||--------------------------------------|
E||--------------------------------------|
Apeo
--0--------0--------0--------0--------|--2--------3--------3--------||
-----1--------1--------1--------1-----|-----3--------3-----0--------||
--------0--------0--------0--------0--|--------2--------2--0--------||
--------------------------------------|--0--------0--------0--------||
--3--------2--------0--------2--------|--------------------2--------||
--------------------------------------|--------------------3--------||