.

.

( )

A                                                   

a a oe. AAA PC.
OOP; O AC
INTRO:
E |------ 0 ---- 0 ---- 3 --- 3 . 3 . 1---0-----------------0----------------- 0--|
H |------ 1 ------ 1 . 3 --------------------1---3.1---3----0---1.0---1----1--|
G |------ 2 - 2 ------ 0 --------------------0-----------------1----------------- 2--|
D |------ 2 ---------- 0 --------------------2-----------------2----------------- 2--|
A |------ 0 ---------- 2 --------------------3-----------------2----------------- 0--|
E |------ 0 ---------- 3 --------------------0----------------- 0-----------------0--|
BASS:
1 | --------------------------------------------------------------------------
2 | ------------------------------------------------ 2 0 1 2 0 --------------|
3 | -------------------------------- 3 0 2 3 0 2 3 ------------ 2 3 -------- |
4 | 5 0 3 5 0 5 4 3 0 2 3 0 2 3 ----------------------------------------|
OCAE O:kaktus_i_znoy@mail.ru