.

.

( )

A                                                   

Riff 1:
Am G C7 E Am G C7 E
e|--0--------3-1-0-------------------------0---------3-1-0---------0--4-5-|
B|----1-0------------3-1-3-0---0-1-0---------1-0-------------3-1-3--------|
G|-2--------0------------------------2-------------0----------------------|
D|---------------------------------------2--------------------------------|
Riff 2:
Am G C E
D|-----------------------------------0-----0------0-2-4---2-4----2-0---|
A|-2---0-2------2-1-0-----0--------0---0-2------4-------4------------4-|
E|---2--------2-------2-4------2-4-------------------------------------|
Ha oe
--------
1 --0--0----3--3-1--0-------0--------0----------
2 --1----1--0-------1-3-1-3-0--3-1-0-1----------
3 --2-------0-------0-------1--------2----------
4 --2-------0-------2-------2--------2----------
5 --0-------0-------3-------2-------------------
6 ----------------------------------------------
1 ----0--------3-1-0----------------------------
2 ------1-0--0--------3-1-3-5\\9\\10--------------
3 --2-------------------------------------------
4 ----------------------------------------------
5 ----------------------------------------------
6 ----------------------------------------------
acoa ap
E|---------------------------------------------------------
B|---------------------------------------------------------
G|---------------------------------------------------------
D|-------------------------------------------2-----2-------
A|-----------------------------3-0-2-3-0-3-5---3-5---5-3-2-
E|-5-0-3-5-0-5-4-3-0-2-3-0-2-3-----------------------------